ISO-10303-21;
HEADER;
/* Generated by software containing ST-Developer
 * from STEP Tools, Inc. (www.steptools.com) 
 */

FILE_DESCRIPTION(
/* description */ (''),
/* implementation_level */ '2;1');

FILE_NAME(
/* name */ '90',
/* time_stamp */ '2012-10-10T11:21:06+08:00',
/* author */ (''),
/* organization */ (''),
/* preprocessor_version */ 'ST-DEVELOPER v9',
/* originating_system */ 'UGS - NX 4.0',
/* authorisation */ '');

FILE_SCHEMA (('CONFIG_CONTROL_DESIGN'));
ENDSEC;

DATA;
#10=SHAPE_REPRESENTATION_RELATIONSHIP('None',
'relationship between Admi7E4Cnq70-None and Admi7E4Cnq70-None',#94,#11);
#11=ADVANCED_BREP_SHAPE_REPRESENTATION('Admi7E4Cnq70-None',(#95),#579);
#12=CC_DESIGN_APPROVAL(#24,(#82));
#13=CC_DESIGN_APPROVAL(#25,(#84));
#14=CC_DESIGN_APPROVAL(#26,(#31));
#15=APPROVAL_PERSON_ORGANIZATION(#69,#24,#18);
#16=APPROVAL_PERSON_ORGANIZATION(#70,#25,#19);
#17=APPROVAL_PERSON_ORGANIZATION(#71,#26,#20);
#18=APPROVAL_ROLE('approver');
#19=APPROVAL_ROLE('approver');
#20=APPROVAL_ROLE('approver');
#21=APPROVAL_DATE_TIME(#39,#24);
#22=APPROVAL_DATE_TIME(#40,#25);
#23=APPROVAL_DATE_TIME(#41,#26);
#24=APPROVAL(#27,' ');
#25=APPROVAL(#28,' ');
#26=APPROVAL(#29,' ');
#27=APPROVAL_STATUS('not_yet_approved');
#28=APPROVAL_STATUS('not_yet_approved');
#29=APPROVAL_STATUS('not_yet_approved');
#30=CC_DESIGN_SECURITY_CLASSIFICATION(#31,(#84));
#31=SECURITY_CLASSIFICATION(' ',' ',#32);
#32=SECURITY_CLASSIFICATION_LEVEL('confidential');
#33=CC_DESIGN_DATE_AND_TIME_ASSIGNMENT(#37,#35,(#82));
#34=CC_DESIGN_DATE_AND_TIME_ASSIGNMENT(#38,#36,(#31));
#35=DATE_TIME_ROLE('creation_date');
#36=DATE_TIME_ROLE('classification_date');
#37=DATE_AND_TIME(#52,#42);
#38=DATE_AND_TIME(#53,#43);
#39=DATE_AND_TIME(#54,#44);
#40=DATE_AND_TIME(#55,#45);
#41=DATE_AND_TIME(#56,#46);
#42=LOCAL_TIME(0,0,0.,#47);
#43=LOCAL_TIME(0,0,0.,#48);
#44=LOCAL_TIME(0,0,0.,#49);
#45=LOCAL_TIME(0,0,0.,#50);
#46=LOCAL_TIME(0,0,0.,#51);
#47=COORDINATED_UNIVERSAL_TIME_OFFSET(0,0,.BEHIND.);
#48=COORDINATED_UNIVERSAL_TIME_OFFSET(0,0,.BEHIND.);
#49=COORDINATED_UNIVERSAL_TIME_OFFSET(0,0,.BEHIND.);
#50=COORDINATED_UNIVERSAL_TIME_OFFSET(0,0,.BEHIND.);
#51=COORDINATED_UNIVERSAL_TIME_OFFSET(0,0,.BEHIND.);
#52=CALENDAR_DATE(0,1,1);
#53=CALENDAR_DATE(0,1,1);
#54=CALENDAR_DATE(0,1,1);
#55=CALENDAR_DATE(0,1,1);
#56=CALENDAR_DATE(0,1,1);
#57=CC_DESIGN_PERSON_AND_ORGANIZATION_ASSIGNMENT(#65,#61,(#82,#84));
#58=CC_DESIGN_PERSON_AND_ORGANIZATION_ASSIGNMENT(#66,#62,(#86));
#59=CC_DESIGN_PERSON_AND_ORGANIZATION_ASSIGNMENT(#67,#63,(#84));
#60=CC_DESIGN_PERSON_AND_ORGANIZATION_ASSIGNMENT(#68,#64,(#31));
#61=PERSON_AND_ORGANIZATION_ROLE('creator');
#62=PERSON_AND_ORGANIZATION_ROLE('design_owner');
#63=PERSON_AND_ORGANIZATION_ROLE('design_supplier');
#64=PERSON_AND_ORGANIZATION_ROLE('classification_officer');
#65=PERSON_AND_ORGANIZATION(#79,#72);
#66=PERSON_AND_ORGANIZATION(#79,#73);
#67=PERSON_AND_ORGANIZATION(#79,#74);
#68=PERSON_AND_ORGANIZATION(#79,#75);
#69=PERSON_AND_ORGANIZATION(#79,#76);
#70=PERSON_AND_ORGANIZATION(#79,#77);
#71=PERSON_AND_ORGANIZATION(#79,#78);
#72=ORGANIZATION(' ',' ',' ');
#73=ORGANIZATION(' ',' ',' ');
#74=ORGANIZATION(' ',' ',' ');
#75=ORGANIZATION(' ',' ',' ');
#76=ORGANIZATION(' ',' ',' ');
#77=ORGANIZATION(' ',' ',' ');
#78=ORGANIZATION(' ',' ',' ');
#79=PERSON(' ',' ',' ',(' '),$,$);
#80=SHAPE_DEFINITION_REPRESENTATION(#81,#94);
#81=PRODUCT_DEFINITION_SHAPE('','',#82);
#82=PRODUCT_DEFINITION(' ','',#84,#83);
#83=DESIGN_CONTEXT('',#93,'design');
#84=PRODUCT_DEFINITION_FORMATION_WITH_SPECIFIED_SOURCE(' ',' ',#86,.NOT_KNOWN.);
#85=PRODUCT_RELATED_PRODUCT_CATEGORY('detail','',(#86));
#86=PRODUCT('Admi7E4Cnq70','Admi7E4Cnq70',' ',(#91));
#87=PRODUCT_CATEGORY_RELATIONSHIP(' ',' ',#89,#90);
#88=PRODUCT_CATEGORY_RELATIONSHIP('','',#90,#85);
#89=PRODUCT_CATEGORY('part',' ');
#90=PRODUCT_CATEGORY(' ','');
#91=MECHANICAL_CONTEXT(' ',#93,'mechanical');
#92=APPLICATION_PROTOCOL_DEFINITION('international standard',
'config_control_design',1994,#93);
#93=APPLICATION_CONTEXT(
'configuration controlled 3D designs of mechanical parts and assemblies
');
#94=SHAPE_REPRESENTATION('Admi7E4Cnq70-None',(#391),#579);
#95=MANIFOLD_SOLID_BREP('',#96);
#96=CLOSED_SHELL('',(#104,#105,#106,#107,#108,#109,#110,#111,#112,#113,#114,
#115,#116,#117,#118,#119,#120,#121));
#97=VERTEX_LOOP('',#347);
#98=VERTEX_LOOP('',#348);
#99=CONICAL_SURFACE('',#405,3.,45.);
#100=CONICAL_SURFACE('',#406,3.,45.);
#101=CONICAL_SURFACE('',#414,2.49999999999997,51.3401917459096);
#102=CONICAL_SURFACE('',#415,2.5,51.3401917459099);
#103=CYLINDRICAL_SURFACE('',#404,2.5);
#104=ADVANCED_FACE('',(#212,#135),#122,.T.);
#105=ADVANCED_FACE('',(#213,#214,#136),#123,.T.);
#106=ADVANCED_FACE('',(#137),#124,.T.);
#107=ADVANCED_FACE('',(#138),#125,.T.);
#108=ADVANCED_FACE('',(#139),#126,.T.);
#109=ADVANCED_FACE('',(#140),#127,.T.);
#110=ADVANCED_FACE('',(#141),#128,.F.);
#111=ADVANCED_FACE('',(#142),#129,.T.);
#112=ADVANCED_FACE('',(#215,#216),#103,.F.);
#113=ADVANCED_FACE('',(#217,#143),#99,.F.);
#114=ADVANCED_FACE('',(#218,#144),#100,.F.);
#115=ADVANCED_FACE('',(#145),#130,.T.);
#116=ADVANCED_FACE('',(#146),#131,.T.);
#117=ADVANCED_FACE('',(#219,#220,#147),#132,.T.);
#118=ADVANCED_FACE('',(#148),#133,.T.);
#119=ADVANCED_FACE('',(#149),#134,.T.);
#120=ADVANCED_FACE('',(#221,#150),#101,.F.);
#121=ADVANCED_FACE('',(#222,#151),#102,.F.);
#122=PLANE('',#393);
#123=PLANE('',#395);
#124=PLANE('',#396);
#125=PLANE('',#397);
#126=PLANE('',#398);
#127=PLANE('',#399);
#128=PLANE('',#400);
#129=PLANE('',#401);
#130=PLANE('',#407);
#131=PLANE('',#408);
#132=PLANE('',#411);
#133=PLANE('',#412);
#134=PLANE('',#413);
#135=FACE_OUTER_BOUND('',#224,.T.);
#136=FACE_OUTER_BOUND('',#227,.T.);
#137=FACE_OUTER_BOUND('',#228,.T.);
#138=FACE_OUTER_BOUND('',#229,.T.);
#139=FACE_OUTER_BOUND('',#230,.T.);
#140=FACE_OUTER_BOUND('',#231,.T.);
#141=FACE_OUTER_BOUND('',#232,.T.);
#142=FACE_OUTER_BOUND('',#233,.T.);
#143=FACE_OUTER_BOUND('',#237,.T.);
#144=FACE_OUTER_BOUND('',#239,.T.);
#145=FACE_OUTER_BOUND('',#240,.T.);
#146=FACE_OUTER_BOUND('',#241,.T.);
#147=FACE_OUTER_BOUND('',#244,.T.);
#148=FACE_OUTER_BOUND('',#245,.T.);
#149=FACE_OUTER_BOUND('',#246,.T.);
#150=FACE_OUTER_BOUND('',#247,.T.);
#151=FACE_OUTER_BOUND('',#248,.T.);
#152=LINE('',#499,#182);
#153=LINE('',#502,#183);
#154=LINE('',#504,#184);
#155=LINE('',#506,#185);
#156=LINE('',#508,#186);
#157=LINE('',#511,#187);
#158=LINE('',#513,#188);
#159=LINE('',#515,#189);
#160=LINE('',#518,#190);
#161=LINE('',#521,#191);
#162=LINE('',#523,#192);
#163=LINE('',#525,#193);
#164=LINE('',#527,#194);
#165=LINE('',#529,#195);
#166=LINE('',#531,#196);
#167=LINE('',#533,#197);
#168=LINE('',#534,#198);
#169=LINE('',#536,#199);
#170=LINE('',#538,#200);
#171=LINE('',#540,#201);
#172=LINE('',#542,#202);
#173=LINE('',#543,#203);
#174=LINE('',#554,#204);
#175=LINE('',#556,#205);
#176=LINE('',#558,#206);
#177=LINE('',#560,#207);
#178=LINE('',#562,#208);
#179=LINE('',#564,#209);
#180=LINE('',#570,#210);
#181=LINE('',#571,#211);
#182=VECTOR('',#420,1.);
#183=VECTOR('',#421,1.);
#184=VECTOR('',#422,1.);
#185=VECTOR('',#423,1.);
#186=VECTOR('',#426,1.);
#187=VECTOR('',#427,1.);
#188=VECTOR('',#428,1.);
#189=VECTOR('',#429,1.);
#190=VECTOR('',#432,1.);
#191=VECTOR('',#433,1.);
#192=VECTOR('',#434,1.);
#193=VECTOR('',#435,1.);
#194=VECTOR('',#438,1.);
#195=VECTOR('',#439,1.);
#196=VECTOR('',#440,1.);
#197=VECTOR('',#443,1.);
#198=VECTOR('',#444,1.);
#199=VECTOR('',#447,1.);
#200=VECTOR('',#448,1.);
#201=VECTOR('',#449,1.);
#202=VECTOR('',#452,1.);
#203=VECTOR('',#453,1.);
#204=VECTOR('',#470,1.);
#205=VECTOR('',#471,1.);
#206=VECTOR('',#472,1.);
#207=VECTOR('',#475,1.);
#208=VECTOR('',#476,1.);
#209=VECTOR('',#477,1.);
#210=VECTOR('',#484,1.);
#211=VECTOR('',#485,1.);
#212=FACE_BOUND('',#223,.T.);
#213=FACE_BOUND('',#225,.T.);
#214=FACE_BOUND('',#226,.T.);
#215=FACE_BOUND('',#234,.T.);
#216=FACE_BOUND('',#235,.T.);
#217=FACE_BOUND('',#236,.T.);
#218=FACE_BOUND('',#238,.T.);
#219=FACE_BOUND('',#242,.T.);
#220=FACE_BOUND('',#243,.T.);
#221=FACE_BOUND('',#97,.T.);
#222=FACE_BOUND('',#98,.T.);
#223=EDGE_LOOP('',(#249));
#224=EDGE_LOOP('',(#250,#251,#252,#253));
#225=EDGE_LOOP('',(#254,#255,#256,#257));
#226=EDGE_LOOP('',(#258));
#227=EDGE_LOOP('',(#259,#260,#261,#262));
#228=EDGE_LOOP('',(#263,#264,#265,#266));
#229=EDGE_LOOP('',(#267,#268,#269,#270));
#230=EDGE_LOOP('',(#271,#272,#273,#274));
#231=EDGE_LOOP('',(#275,#276,#277,#278));
#232=EDGE_LOOP('',(#279,#280,#281,#282,#283,#284));
#233=EDGE_LOOP('',(#285,#286,#287,#288,#289,#290));
#234=EDGE_LOOP('',(#291));
#235=EDGE_LOOP('',(#292));
#236=EDGE_LOOP('',(#293));
#237=EDGE_LOOP('',(#294));
#238=EDGE_LOOP('',(#295));
#239=EDGE_LOOP('',(#296));
#240=EDGE_LOOP('',(#297,#298,#299,#300));
#241=EDGE_LOOP('',(#301,#302,#303,#304));
#242=EDGE_LOOP('',(#305));
#243=EDGE_LOOP('',(#306));
#244=EDGE_LOOP('',(#307,#308,#309,#310));
#245=EDGE_LOOP('',(#311,#312,#313,#314));
#246=EDGE_LOOP('',(#315,#316,#317,#318));
#247=EDGE_LOOP('',(#319));
#248=EDGE_LOOP('',(#320));
#249=ORIENTED_EDGE('',*,*,#349,.T.);
#250=ORIENTED_EDGE('',*,*,#350,.F.);
#251=ORIENTED_EDGE('',*,*,#351,.F.);
#252=ORIENTED_EDGE('',*,*,#352,.T.);
#253=ORIENTED_EDGE('',*,*,#353,.T.);
#254=ORIENTED_EDGE('',*,*,#354,.F.);
#255=ORIENTED_EDGE('',*,*,#355,.F.);
#256=ORIENTED_EDGE('',*,*,#356,.T.);
#257=ORIENTED_EDGE('',*,*,#357,.T.);
#258=ORIENTED_EDGE('',*,*,#358,.T.);
#259=ORIENTED_EDGE('',*,*,#359,.F.);
#260=ORIENTED_EDGE('',*,*,#360,.F.);
#261=ORIENTED_EDGE('',*,*,#361,.T.);
#262=ORIENTED_EDGE('',*,*,#362,.T.);
#263=ORIENTED_EDGE('',*,*,#363,.F.);
#264=ORIENTED_EDGE('',*,*,#362,.F.);
#265=ORIENTED_EDGE('',*,*,#364,.T.);
#266=ORIENTED_EDGE('',*,*,#365,.T.);
#267=ORIENTED_EDGE('',*,*,#366,.F.);
#268=ORIENTED_EDGE('',*,*,#365,.F.);
#269=ORIENTED_EDGE('',*,*,#367,.T.);
#270=ORIENTED_EDGE('',*,*,#351,.T.);
#271=ORIENTED_EDGE('',*,*,#368,.F.);
#272=ORIENTED_EDGE('',*,*,#353,.F.);
#273=ORIENTED_EDGE('',*,*,#369,.T.);
#274=ORIENTED_EDGE('',*,*,#370,.T.);
#275=ORIENTED_EDGE('',*,*,#371,.F.);
#276=ORIENTED_EDGE('',*,*,#370,.F.);
#277=ORIENTED_EDGE('',*,*,#372,.T.);
#278=ORIENTED_EDGE('',*,*,#360,.T.);
#279=ORIENTED_EDGE('',*,*,#361,.F.);
#280=ORIENTED_EDGE('',*,*,#372,.F.);
#281=ORIENTED_EDGE('',*,*,#369,.F.);
#282=ORIENTED_EDGE('',*,*,#352,.F.);
#283=ORIENTED_EDGE('',*,*,#367,.F.);
#284=ORIENTED_EDGE('',*,*,#364,.F.);
#285=ORIENTED_EDGE('',*,*,#359,.T.);
#286=ORIENTED_EDGE('',*,*,#363,.T.);
#287=ORIENTED_EDGE('',*,*,#366,.T.);
#288=ORIENTED_EDGE('',*,*,#350,.T.);
#289=ORIENTED_EDGE('',*,*,#368,.T.);
#290=ORIENTED_EDGE('',*,*,#371,.T.);
#291=ORIENTED_EDGE('',*,*,#373,.T.);
#292=ORIENTED_EDGE('',*,*,#374,.T.);
#293=ORIENTED_EDGE('',*,*,#373,.F.);
#294=ORIENTED_EDGE('',*,*,#349,.F.);
#295=ORIENTED_EDGE('',*,*,#374,.F.);
#296=ORIENTED_EDGE('',*,*,#358,.F.);
#297=ORIENTED_EDGE('',*,*,#375,.F.);
#298=ORIENTED_EDGE('',*,*,#376,.F.);
#299=ORIENTED_EDGE('',*,*,#377,.T.);
#300=ORIENTED_EDGE('',*,*,#355,.T.);
#301=ORIENTED_EDGE('',*,*,#378,.F.);
#302=ORIENTED_EDGE('',*,*,#357,.F.);
#303=ORIENTED_EDGE('',*,*,#379,.T.);
#304=ORIENTED_EDGE('',*,*,#380,.T.);
#305=ORIENTED_EDGE('',*,*,#381,.F.);
#306=ORIENTED_EDGE('',*,*,#382,.F.);
#307=ORIENTED_EDGE('',*,*,#383,.F.);
#308=ORIENTED_EDGE('',*,*,#380,.F.);
#309=ORIENTED_EDGE('',*,*,#384,.T.);
#310=ORIENTED_EDGE('',*,*,#376,.T.);
#311=ORIENTED_EDGE('',*,*,#384,.F.);
#312=ORIENTED_EDGE('',*,*,#379,.F.);
#313=ORIENTED_EDGE('',*,*,#356,.F.);
#314=ORIENTED_EDGE('',*,*,#377,.F.);
#315=ORIENTED_EDGE('',*,*,#383,.T.);
#316=ORIENTED_EDGE('',*,*,#375,.T.);
#317=ORIENTED_EDGE('',*,*,#354,.T.);
#318=ORIENTED_EDGE('',*,*,#378,.T.);
#319=ORIENTED_EDGE('',*,*,#382,.T.);
#320=ORIENTED_EDGE('',*,*,#381,.T.);
#321=VERTEX_POINT('',#498);
#322=VERTEX_POINT('',#500);
#323=VERTEX_POINT('',#501);
#324=VERTEX_POINT('',#503);
#325=VERTEX_POINT('',#505);
#326=VERTEX_POINT('',#509);
#327=VERTEX_POINT('',#510);
#328=VERTEX_POINT('',#512);
#329=VERTEX_POINT('',#514);
#330=VERTEX_POINT('',#517);
#331=VERTEX_POINT('',#519);
#332=VERTEX_POINT('',#520);
#333=VERTEX_POINT('',#522);
#334=VERTEX_POINT('',#524);
#335=VERTEX_POINT('',#528);
#336=VERTEX_POINT('',#530);
#337=VERTEX_POINT('',#537);
#338=VERTEX_POINT('',#539);
#339=VERTEX_POINT('',#548);
#340=VERTEX_POINT('',#550);
#341=VERTEX_POINT('',#555);
#342=VERTEX_POINT('',#557);
#343=VERTEX_POINT('',#561);
#344=VERTEX_POINT('',#563);
#345=VERTEX_POINT('',#567);
#346=VERTEX_POINT('',#569);
#347=VERTEX_POINT('',#575);
#348=VERTEX_POINT('',#577);
#349=EDGE_CURVE('',#321,#321,#385,.T.);
#350=EDGE_CURVE('',#322,#323,#152,.T.);
#351=EDGE_CURVE('',#324,#322,#153,.T.);
#352=EDGE_CURVE('',#324,#325,#154,.T.);
#353=EDGE_CURVE('',#325,#323,#155,.T.);
#354=EDGE_CURVE('',#326,#327,#156,.T.);
#355=EDGE_CURVE('',#328,#326,#157,.T.);
#356=EDGE_CURVE('',#328,#329,#158,.T.);
#357=EDGE_CURVE('',#329,#327,#159,.T.);
#358=EDGE_CURVE('',#330,#330,#386,.T.);
#359=EDGE_CURVE('',#331,#332,#160,.T.);
#360=EDGE_CURVE('',#333,#331,#161,.T.);
#361=EDGE_CURVE('',#333,#334,#162,.T.);
#362=EDGE_CURVE('',#334,#332,#163,.T.);
#363=EDGE_CURVE('',#332,#335,#164,.T.);
#364=EDGE_CURVE('',#334,#336,#165,.T.);
#365=EDGE_CURVE('',#336,#335,#166,.T.);
#366=EDGE_CURVE('',#335,#322,#167,.T.);
#367=EDGE_CURVE('',#336,#324,#168,.T.);
#368=EDGE_CURVE('',#323,#337,#169,.T.);
#369=EDGE_CURVE('',#325,#338,#170,.T.);
#370=EDGE_CURVE('',#338,#337,#171,.T.);
#371=EDGE_CURVE('',#337,#331,#172,.T.);
#372=EDGE_CURVE('',#338,#333,#173,.T.);
#373=EDGE_CURVE('',#339,#339,#387,.T.);
#374=EDGE_CURVE('',#340,#340,#388,.T.);
#375=EDGE_CURVE('',#341,#326,#174,.T.);
#376=EDGE_CURVE('',#342,#341,#175,.T.);
#377=EDGE_CURVE('',#342,#328,#176,.T.);
#378=EDGE_CURVE('',#327,#343,#177,.T.);
#379=EDGE_CURVE('',#329,#344,#178,.T.);
#380=EDGE_CURVE('',#344,#343,#179,.T.);
#381=EDGE_CURVE('',#345,#345,#389,.T.);
#382=EDGE_CURVE('',#346,#346,#390,.T.);
#383=EDGE_CURVE('',#343,#341,#180,.T.);
#384=EDGE_CURVE('',#344,#342,#181,.T.);
#385=CIRCLE('',#392,3.);
#386=CIRCLE('',#394,3.);
#387=CIRCLE('',#402,2.5);
#388=CIRCLE('',#403,2.5);
#389=CIRCLE('',#409,2.5);
#390=CIRCLE('',#410,2.49999999999997);
#391=AXIS2_PLACEMENT_3D('',#496,#416,#417);
#392=AXIS2_PLACEMENT_3D('',#497,#418,#419);
#393=AXIS2_PLACEMENT_3D('',#507,#424,#425);
#394=AXIS2_PLACEMENT_3D('',#516,#430,#431);
#395=AXIS2_PLACEMENT_3D('',#526,#436,#437);
#396=AXIS2_PLACEMENT_3D('',#532,#441,#442);
#397=AXIS2_PLACEMENT_3D('',#535,#445,#446);
#398=AXIS2_PLACEMENT_3D('',#541,#450,#451);
#399=AXIS2_PLACEMENT_3D('',#544,#454,#455);
#400=AXIS2_PLACEMENT_3D('',#545,#456,#457);
#401=AXIS2_PLACEMENT_3D('',#546,#458,#459);
#402=AXIS2_PLACEMENT_3D('',#547,#460,#461);
#403=AXIS2_PLACEMENT_3D('',#549,#462,#463);
#404=AXIS2_PLACEMENT_3D('',#551,#464,#465);
#405=AXIS2_PLACEMENT_3D('',#552,#466,#467);
#406=AXIS2_PLACEMENT_3D('',#553,#468,#469);
#407=AXIS2_PLACEMENT_3D('',#559,#473,#474);
#408=AXIS2_PLACEMENT_3D('',#565,#478,#479);
#409=AXIS2_PLACEMENT_3D('',#566,#480,#481);
#410=AXIS2_PLACEMENT_3D('',#568,#482,#483);
#411=AXIS2_PLACEMENT_3D('',#572,#486,#487);
#412=AXIS2_PLACEMENT_3D('',#573,#488,#489);
#413=AXIS2_PLACEMENT_3D('',#574,#490,#491);
#414=AXIS2_PLACEMENT_3D('',#576,#492,#493);
#415=AXIS2_PLACEMENT_3D('',#578,#494,#495);
#416=DIRECTION('',(0.,0.,1.));
#417=DIRECTION('',(1.,0.,0.));
#418=DIRECTION('',(0.,-1.,0.));
#419=DIRECTION('',(0.,0.,1.));
#420=DIRECTION('',(1.,0.,0.));
#421=DIRECTION('',(0.,0.,-1.));
#422=DIRECTION('',(1.,0.,0.));
#423=DIRECTION('',(0.,0.,-1.));
#424=DIRECTION('',(0.,1.,0.));
#425=DIRECTION('',(0.,0.,1.));
#426=DIRECTION('',(1.,0.,0.));
#427=DIRECTION('',(0.,0.,-1.));
#428=DIRECTION('',(1.,0.,0.));
#429=DIRECTION('',(0.,0.,-1.));
#430=DIRECTION('',(0.,1.,0.));
#431=DIRECTION('',(0.,0.,-1.));
#432=DIRECTION('',(-1.,0.,0.));
#433=DIRECTION('',(0.,0.,-1.));
#434=DIRECTION('',(-1.,0.,0.));
#435=DIRECTION('',(0.,0.,-1.));
#436=DIRECTION('',(0.,-1.,0.));
#437=DIRECTION('',(0.,0.,-1.));
#438=DIRECTION('',(0.,1.,0.));
#439=DIRECTION('',(0.,1.,0.));
#440=DIRECTION('',(0.,0.,-1.));
#441=DIRECTION('',(-1.,0.,0.));
#442=DIRECTION('',(0.,0.,1.));
#443=DIRECTION('',(0.707106781186547,0.707106781186547,0.));
#444=DIRECTION('',(0.707106781186547,0.707106781186547,0.));
#445=DIRECTION('',(-0.707106781186548,0.707106781186548,0.));
#446=DIRECTION('',(-0.707106781186548,-0.707106781186548,0.));
#447=DIRECTION('',(0.707106781186547,-0.707106781186547,0.));
#448=DIRECTION('',(0.707106781186547,-0.707106781186547,0.));
#449=DIRECTION('',(0.,0.,-1.));
#450=DIRECTION('',(0.707106781186548,0.707106781186548,0.));
#451=DIRECTION('',(-0.707106781186547,0.707106781186548,0.));
#452=DIRECTION('',(0.,-1.,0.));
#453=DIRECTION('',(0.,-1.,0.));
#454=DIRECTION('',(1.,0.,0.));
#455=DIRECTION('',(0.,0.,-1.));
#456=DIRECTION('',(0.,0.,-1.));
#457=DIRECTION('',(-1.,0.,0.));
#458=DIRECTION('',(0.,0.,-1.));
#459=DIRECTION('',(-1.,0.,0.));
#460=DIRECTION('',(0.,1.,0.));
#461=DIRECTION('',(0.,0.,1.));
#462=DIRECTION('',(0.,-1.,0.));
#463=DIRECTION('',(0.,0.,-1.));
#464=DIRECTION('',(0.,1.,0.));
#465=DIRECTION('',(0.,0.,1.));
#466=DIRECTION('',(0.,1.,0.));
#467=DIRECTION('',(0.,-6.91813948545088E-017,1.));
#468=DIRECTION('',(0.,-1.,0.));
#469=DIRECTION('',(0.,2.76725579418035E-017,-1.));
#470=DIRECTION('',(-0.110282025401237,0.992538228611136,-0.0520167244150331));
#471=DIRECTION('',(0.,0.,-1.));
#472=DIRECTION('',(-0.110282025401237,0.992538228611136,0.0520167244150331));
#473=DIRECTION('',(-0.993883734673619,-0.110431526074847,0.));
#474=DIRECTION('',(0.110431526074847,-0.993883734673619,0.));
#475=DIRECTION('',(-0.110282025401237,-0.992538228611136,0.0520167244150331));
#476=DIRECTION('',(-0.110282025401237,-0.992538228611136,-0.0520167244150331));
#477=DIRECTION('',(0.,0.,-1.));
#478=DIRECTION('',(0.993883734673619,-0.110431526074847,0.));
#479=DIRECTION('',(0.110431526074847,0.993883734673619,0.));
#480=DIRECTION('',(0.,-1.,0.));
#481=DIRECTION('',(0.,0.,-1.));
#482=DIRECTION('',(0.,-1.,0.));
#483=DIRECTION('',(0.,0.,-1.));
#484=DIRECTION('',(-1.,0.,0.));
#485=DIRECTION('',(-1.,0.,0.));
#486=DIRECTION('',(0.,-1.,0.));
#487=DIRECTION('',(0.,0.,-1.));
#488=DIRECTION('',(0.,-0.0523359562429438,0.998629534754574));
#489=DIRECTION('',(0.,-0.998629534754574,-0.0523359562429438));
#490=DIRECTION('',(0.,-0.0523359562429438,-0.998629534754574));
#491=DIRECTION('',(0.,0.998629534754574,-0.0523359562429438));
#492=DIRECTION('',(0.,-1.,0.));
#493=DIRECTION('',(0.,2.21601402120792E-017,-1.));
#494=DIRECTION('',(0.,-1.,0.));
#495=DIRECTION('',(0.,2.2160140212079E-017,-1.));
#496=CARTESIAN_POINT('',(0.,0.,0.));
#497=CARTESIAN_POINT('',(197.,117.5,0.));
#498=CARTESIAN_POINT('',(197.,117.5,3.));
#499=CARTESIAN_POINT('',(197.,117.5,-9.5));
#500=CARTESIAN_POINT('',(114.,117.5,-9.5));
#501=CARTESIAN_POINT('',(206.,117.5,-9.5));
#502=CARTESIAN_POINT('',(114.,117.5,9.5));
#503=CARTESIAN_POINT('',(114.,117.5,9.5));
#504=CARTESIAN_POINT('',(114.,117.5,9.5));
#505=CARTESIAN_POINT('',(206.,117.5,9.5));
#506=CARTESIAN_POINT('',(206.,117.5,9.5));
#507=CARTESIAN_POINT('',(197.,117.5,9.5));
#508=CARTESIAN_POINT('',(143.,103.5,-8.47167001354737));
#509=CARTESIAN_POINT('',(114.5,103.5,-8.47167001354737));
#510=CARTESIAN_POINT('',(171.5,103.5,-8.47167001354737));
#511=CARTESIAN_POINT('',(114.5,103.5,8.));
#512=CARTESIAN_POINT('',(114.5,103.5,8.47167001354737));
#513=CARTESIAN_POINT('',(143.,103.5,8.47167001354737));
#514=CARTESIAN_POINT('',(171.5,103.5,8.47167001354737));
#515=CARTESIAN_POINT('',(171.5,103.5,8.));
#516=CARTESIAN_POINT('',(197.,103.5,0.));
#517=CARTESIAN_POINT('',(197.,103.5,-3.));
#518=CARTESIAN_POINT('',(171.5,103.5,-9.5));
#519=CARTESIAN_POINT('',(206.5,103.5,-9.5));
#520=CARTESIAN_POINT('',(113.5,103.5,-9.5));
#521=CARTESIAN_POINT('',(206.5,103.5,9.5));
#522=CARTESIAN_POINT('',(206.5,103.5,9.5));
#523=CARTESIAN_POINT('',(160.,103.5,9.5));
#524=CARTESIAN_POINT('',(113.5,103.5,9.5));
#525=CARTESIAN_POINT('',(113.5,103.5,9.5));
#526=CARTESIAN_POINT('',(171.5,103.5,9.5));
#527=CARTESIAN_POINT('',(113.5,103.5,-9.5));
#528=CARTESIAN_POINT('',(113.5,117.,-9.5));
#529=CARTESIAN_POINT('',(113.5,103.5,9.5));
#530=CARTESIAN_POINT('',(113.5,117.,9.5));
#531=CARTESIAN_POINT('',(113.5,117.,9.5));
#532=CARTESIAN_POINT('',(113.5,103.5,9.5));
#533=CARTESIAN_POINT('',(113.5,117.,-9.5));
#534=CARTESIAN_POINT('',(113.5,117.,9.5));
#535=CARTESIAN_POINT('',(113.5,117.,9.5));
#536=CARTESIAN_POINT('',(206.,117.5,-9.5));
#537=CARTESIAN_POINT('',(206.5,117.,-9.5));
#538=CARTESIAN_POINT('',(206.,117.5,9.5));
#539=CARTESIAN_POINT('',(206.5,117.,9.5));
#540=CARTESIAN_POINT('',(206.5,117.,9.5));
#541=CARTESIAN_POINT('',(206.,117.5,9.5));
#542=CARTESIAN_POINT('',(206.5,117.,-9.5));
#543=CARTESIAN_POINT('',(206.5,117.,9.5));
#544=CARTESIAN_POINT('',(206.5,117.,9.5));
#545=CARTESIAN_POINT('',(113.5,103.5,9.5));
#546=CARTESIAN_POINT('',(113.5,103.5,-9.5));
#547=CARTESIAN_POINT('',(197.,117.,0.));
#548=CARTESIAN_POINT('',(197.,117.,2.5));
#549=CARTESIAN_POINT('',(197.,104.,0.));
#550=CARTESIAN_POINT('',(197.,104.,-2.5));
#551=CARTESIAN_POINT('',(197.,95.5,0.));
#552=CARTESIAN_POINT('',(197.,117.5,0.));
#553=CARTESIAN_POINT('',(197.,103.5,0.));
#554=CARTESIAN_POINT('',(115.834458440981,91.4898740311667,-7.84224598261124));
#555=CARTESIAN_POINT('',(115.5,94.5,-8.));
#556=CARTESIAN_POINT('',(115.5,94.5,8.));
#557=CARTESIAN_POINT('',(115.5,94.5,8.));
#558=CARTESIAN_POINT('',(115.834458440981,91.4898740311667,7.84224598261124));
#559=CARTESIAN_POINT('',(115.5,94.5,8.));
#560=CARTESIAN_POINT('',(170.165541559019,91.4898740311667,-7.84224598261124));
#561=CARTESIAN_POINT('',(170.5,94.5,-8.));
#562=CARTESIAN_POINT('',(170.165541559019,91.4898740311667,7.84224598261124));
#563=CARTESIAN_POINT('',(170.5,94.5,8.));
#564=CARTESIAN_POINT('',(170.5,94.5,8.));
#565=CARTESIAN_POINT('',(171.5,103.5,8.));
#566=CARTESIAN_POINT('',(123.,94.5,0.));
#567=CARTESIAN_POINT('',(123.,94.5,-2.5));
#568=CARTESIAN_POINT('',(160.,94.5,0.));
#569=CARTESIAN_POINT('',(160.,94.5,-2.49999999999997));
#570=CARTESIAN_POINT('',(143.,94.5,-8.));
#571=CARTESIAN_POINT('',(143.,94.5,8.));
#572=CARTESIAN_POINT('',(125.5,94.5,8.));
#573=CARTESIAN_POINT('',(143.,94.5,8.));
#574=CARTESIAN_POINT('',(143.,94.5,-8.));
#575=CARTESIAN_POINT('',(160.,96.5,0.));
#576=CARTESIAN_POINT('',(160.,94.5,0.));
#577=CARTESIAN_POINT('',(123.,96.5,0.));
#578=CARTESIAN_POINT('',(123.,94.5,0.));
#579=(
GEOMETRIC_REPRESENTATION_CONTEXT(3)
GLOBAL_UNCERTAINTY_ASSIGNED_CONTEXT((#580))
GLOBAL_UNIT_ASSIGNED_CONTEXT((#586,#582,#581))
REPRESENTATION_CONTEXT('90','TOP_LEVEL_ASSEMBLY_PART')
);
#580=UNCERTAINTY_MEASURE_WITH_UNIT(LENGTH_MEASURE(2.E-005),#586,
'DISTANCE_ACCURACY_VALUE','Maximum Tolerance applied to model');
#581=(
NAMED_UNIT(*)
SI_UNIT($,.STERADIAN.)
SOLID_ANGLE_UNIT()
);
#582=(
CONVERSION_BASED_UNIT('DEGREE',#584)
NAMED_UNIT(#583)
PLANE_ANGLE_UNIT()
);
#583=DIMENSIONAL_EXPONENTS(0.,0.,0.,0.,0.,0.,0.);
#584=PLANE_ANGLE_MEASURE_WITH_UNIT(PLANE_ANGLE_MEASURE(0.0174532925),#585);
#585=(
NAMED_UNIT(*)
PLANE_ANGLE_UNIT()
SI_UNIT($,.RADIAN.)
);
#586=(
LENGTH_UNIT()
NAMED_UNIT(*)
SI_UNIT(.MILLI.,.METRE.)
);
ENDSEC;
END-ISO-10303-21;
